Transcribed by bryson meunier

Chords used:
Gm7d7 e7
E---10-----10-----12------|
B---11-----10-----12------|
G---10-----11-----13------|
D---12-----10-----12------|
A---10-----12-----14------|
E----------10-----12------|

Strum the gm7 chord for the intro.

Gm7 / d7 e7
Eep opp ork ah-ah

Chord progression for chorus: d7-gm7-e7-d7-gm7

It sounds like a bass with fuzz during the verse. the equivalent on
Guitar is bb5 with a fuzz box.

Gm7(with chorus or something)
Come fly with me...

Guitar solo 1-
E----------------------------------------------------|
B-------------------------------------------10-10-x--|
G------7b-r-b-r--------------7b-r-7-----7-7----------|
D--7h9----------9-9-7-9--7-9--------9-9--------------|
A----------------------------------------------------|
E----------------------------------------------------|

E-----------------------------10h12--12--10---12p10--|
B-10-10---10-12-12-12-10-12------10--10--10------10--|
G----------------------------------------------------|
D----------------------------------------------------|
A----------------------------------------------------|
E----------------------------------------------------|

E-12--10---12-10-12-10-12-10-1214-------------------|
B-10--10---10-10-10-10-10-10-10----------------------|
G----------------------------------------------------|
D----------------------------------------------------|
A----------------------------------------------------|
E----------------------------------------------------|

Fuzz bass solo(guitar plays chorus chord progression)

Guitar solo 2-
E--9--6---6---------6---9--6---6----------------6----|
B-----------9--6--9---------------9----6--6--6-----9-|
G-----------------------------------8----------------|
D----------------------------------------------------|
A----------------------------------------------------|
E----------------------------------------------------|

E----------------------------------------------------|
B-6--------------6-----------------------------------|
G----8--6---6--8----8--6-----------------------------|
D---------8---------------8--6-----------------------|
A-------------------------------8--6-----------------|
E-------------------------------------6--------------|

The same chords are played at the end but the tempo obviously changes. at
The very end the guitar is slowly moving up the neck and ending by speed
Picking around the 22nd fret on e.
Mail  |  Print  |  Vote

Eep Opp Ork Ah - Ah Lyrics

translated from English to Korean

Violent Femmes – Eep Opp Ork Ah - Ah Lyrics

Translation in progress. Please wait...